Make your own free website on Tripod.com
AnAl CrUsT LuBrIcAtOr

Home

Message board
Guitar Tabs
About Us
Funny ish
Download our songs
Pics/info abuut us... eh?
Favorite Links
Contact Us
The Poll Page
FUCKING W/ PEOPLE IT FUN
Helpfull tip of the day
RELIGION(danny style)
Guitar Tabs

here are the guitar tabs for our songs...

Ghonnorhea:

Standard Tuning: E A D G B E

Verses:
-----------------------------------------------------------
------1----1----1----1-------------------------------------
----2----2----2--------------------------------------------
--2----3---------------------------------------------------
------------3------2---------------------------------------
-----------------3-----------------------------------------

Chorus: G D Am Em
-3---2---------------3---2---------------------------------
-----3---1---------------3---1-*let it ring----------------
-----2---2---------------2---2-*let it ring----------------
---------2---2---------------2-*let it ring----------------
-2-----------2-------2-------------------------------------
-3-------------------3-------------------------------------

very easy song...